=REUBEN= Forum Index =REUBEN=
Welcome to the official =REUBEN= forum
 
 FAQFAQ   SearchSearch   MemberlistMemberlist   UsergroupsUsergroups   RegisterRegister 
 ProfileProfile   Log in to check your private messagesLog in to check your private messages   Log inLog in 

Alpha signal five tab

 
Post new topic   Reply to topic    =REUBEN= Forum Index -> Reuben
View previous topic :: View next topic  
Author Message
Alfie



Age: 28
Joined: 21 Feb 2007
Posts: 501

PostPosted: Mon Sep 10, 2007 7:44 pm    Post subject: Alpha signal five tab Reply with quote

Thoguth i'd give it a go, not quite note perfect but it sounds alright.

Reuben - Alpha Signal Five Tab

Can’t work out the beginning chord.

First part of verse – ‘It’s over and I can’t turn it off…’

C#--8-7-x-7-5--------------2--------------
G#--8-7-x 7-5—(X 16)---2----(X 16)-- X 4 (only the G and E chords)
C#--8-7-x 7-5--------------2--------------

D#-------------------------------------------0--
A#-------------------------------------------0-- (Played every other time)
F#-------------------------------------------0--
C#-0-5-4p0h4-0-4-0-4-5-4-2-0---------0--
G#-0-5-4p0h4-0-4-0-4-5-4-2-0------------
C#-0-5-4p0h4-0-4-0-4-5-4-2-0------------

‘Don’t cry if you don’t mean every tear’
C#--8-7-x-7-5--------------2--------------
G#--8-7-x 7-5—(X 16)---2----(X 16)-- X 4 (only the G and E chords)
C#--8-7-x 7-5--------------2--------------

No guitar for ‘Life or death vision obscured’

Here’s one in the eye for love’ second time round

D#----5---(let ring)—4s5---------------
A#----5—(let ring)—4s5---------------
F#------------------------------------------

Then the fucking tasty riff:

F#-----5--------5-5------5-5----------------------
C#-0--5-0-0-0-5-5-0-0-5-5--4-4-4--5-5-5-----
G#-0--3-0-0-0-3-3-0-0-3-3--4-4-4--5-5-5-----X 4
C#-0-----0-0-0------0-0-------4-4-4--5-5-5-----

‘You said could we be the best and I said oh’

C#----5---------2----
G#------5----------2- (slight variations)
C#--5-----0h2-------

*Scream*

Back to the first verse riff
C#--5-------------2----------
G#--5—(X 16)---2—(X16)-
C#--5-------------2-----------

Get the tasty riff back in there
‘In still alive, number fucking five’

F#-----5--------5-5------5-5----------------------
C#-0--5-0-0-0-5-5-0-0-5-5--4-4-4--5-5-5-----
G#-0--3-0-0-0-3-3-0-0-3-3--4-4-4--5-5-5-----X 4
C#-0-----0-0-0------0-0-------4-4-4--5-5-5-----

End with C#--0-0------
G#--0-0------
C#--0-0-------
_________________
This is not real I am not here This is not me

www.ottawahoax.bandcamp.com
Back to top
View user's profile Send private message Send e-mail MSN Messenger
Lee



Age: 32
Joined: 25 Apr 2004
Posts: 1947
Location: Shrewsbury

PostPosted: Mon Sep 10, 2007 8:10 pm    Post subject: Reply with quote

the tuning is DADGBE
_________________
Tiny little ducklings wearing paper hats. Standing outside the worlds tallest block of flats.
Back to top
View user's profile Send private message Send e-mail Visit poster's website
Alfie



Age: 28
Joined: 21 Feb 2007
Posts: 501

PostPosted: Mon Sep 10, 2007 8:18 pm    Post subject: Reply with quote

I'm pretty sure it's not. I tuned my guitar to stuck in my throat before i started figuring it out, if it is in drop d you could play everything up a fret but that would just be harder. This sounds fine along with the record and is pretty simple
_________________
This is not real I am not here This is not me

www.ottawahoax.bandcamp.com
Back to top
View user's profile Send private message Send e-mail MSN Messenger
Lee



Age: 32
Joined: 25 Apr 2004
Posts: 1947
Location: Shrewsbury

PostPosted: Mon Sep 10, 2007 8:21 pm    Post subject: Reply with quote

oh right. its just that they said everything pre-SIMT was standard or dropped d, and everything after was down half a step.
_________________
Tiny little ducklings wearing paper hats. Standing outside the worlds tallest block of flats.
Back to top
View user's profile Send private message Send e-mail Visit poster's website
Alfie



Age: 28
Joined: 21 Feb 2007
Posts: 501

PostPosted: Mon Sep 10, 2007 8:38 pm    Post subject: Reply with quote

Well I'll make sure my guitar is actually in dropped c sharp and then play along to it again, maybe my ears are retarded but I'm pretty sure it's okay
_________________
This is not real I am not here This is not me

www.ottawahoax.bandcamp.com
Back to top
View user's profile Send private message Send e-mail MSN Messenger
sad_statue_27




Joined: 14 Feb 2007
Posts: 1017

PostPosted: Mon Sep 10, 2007 8:57 pm    Post subject: Reply with quote

Just so it's a wee bit easier to read
Code:

C#--8-7-x-7-5--------------2--------------
G#--8-7-x 7-5—(X 16)---2----(X 16)-- X 4 (only the G and E chords)
C#--8-7-x 7-5--------------2--------------

D#-------------------------------------------0--
A#-------------------------------------------0-- (Played every other time)
F#-------------------------------------------0--
C#-0-5-4p0h4-0-4-0-4-5-4-2-0---------0--
G#-0-5-4p0h4-0-4-0-4-5-4-2-0------------
C#-0-5-4p0h4-0-4-0-4-5-4-2-0------------

‘Don’t cry if you don’t mean every tear’
C#--8-7-x-7-5--------------2--------------
G#--8-7-x 7-5—(X 16)---2----(X 16)-- X 4 (only the G and E chords)
C#--8-7-x 7-5--------------2--------------

No guitar for ‘Life or death vision obscured’

Here’s one in the eye for love’ second time round

D#----5---(let ring)—4s5---------------
A#----5—(let ring)—4s5---------------
F#------------------------------------------

Then the fucking tasty riff:

F#-----5--------5-5------5-5----------------------
C#-0--5-0-0-0-5-5-0-0-5-5--4-4-4--5-5-5-----
G#-0--3-0-0-0-3-3-0-0-3-3--4-4-4--5-5-5-----X 4
C#-0-----0-0-0------0-0-------4-4-4--5-5-5-----

‘You said could we be the best and I said oh’

C#----5---------2----
G#------5----------2- (slight variations)
C#--5-----0h2-------

*Scream*

Back to the first verse riff
C#--5-------------2----------
G#--5—(X 16)---2—(X16)-
C#--5-------------2-----------

Get the tasty riff back in there
‘In still alive, number fucking five’

F#-----5--------5-5------5-5----------------------
C#-0--5-0-0-0-5-5-0-0-5-5--4-4-4--5-5-5-----
G#-0--3-0-0-0-3-3-0-0-3-3--4-4-4--5-5-5-----X 4
C#-0-----0-0-0------0-0-------4-4-4--5-5-5-----

End with
C#--0-0------
G#--0-0------
C#--0-0-------


Last edited by sad_statue_27 on Tue Sep 11, 2007 9:12 pm; edited 3 times in total
Back to top
View user's profile Send private message
Alfie



Age: 28
Joined: 21 Feb 2007
Posts: 501

PostPosted: Mon Sep 10, 2007 9:02 pm    Post subject: Reply with quote

Thank you feely you beautiful long haired oaf I lacked the patience

lots of love
_________________
This is not real I am not here This is not me

www.ottawahoax.bandcamp.com
Back to top
View user's profile Send private message Send e-mail MSN Messenger
Display posts from previous:   
Post new topic   Reply to topic    =REUBEN= Forum Index -> Reuben All times are GMT
Page 1 of 1

 
Jump to:  
You cannot post new topics in this forum
You cannot reply to topics in this forum
You cannot edit your posts in this forum
You cannot delete your posts in this forum
You cannot vote in polls in this forum


Powered by phpBB © 2001, 2005 phpBB Group