=REUBEN= Forum Index =REUBEN=
Welcome to the official =REUBEN= forum
 
 FAQFAQ   SearchSearch   MemberlistMemberlist   UsergroupsUsergroups   RegisterRegister 
 ProfileProfile   Log in to check your private messagesLog in to check your private messages   Log inLog in 

Suffocation Of The Soul Tab!

 
Post new topic   Reply to topic    =REUBEN= Forum Index -> Reuben
View previous topic :: View next topic  
Author Message
Jordie




Joined: 25 Jul 2007
Posts: 3

PostPosted: Wed Jul 25, 2007 6:52 pm    Post subject: Suffocation Of The Soul Tab! Reply with quote

Here it is:

Code:
Artist- Reuben
Song- Suffocation Of The Soul
Album- In Nothing We Trust
Tabbed by Jordie

Tuning
D# G# C# F# A# D#

e|-----------------------------------------
b|-----------------------------------------
g|-19-16-9-7-9-7---------------------------
d|-----------------------------------------
a|-----------------------------------------
e|----------------------------------------- x2


e|-----------------------------------------
b|-----------------------------------------
g|-----------------------------------------
d|-21-22--19--18---------------------------
a|-----------------------------------------
e|----------------------------------------- x2


I thought that I
Was followed
 
Break

Bass Line
g|-------------------------------------------------
d|-------------------------------------------------
a|-------------------------------------------------
e|-0-0-12-12-0-0-0-0-0-12-0-0-12-12-0-0-0-10-10-10-

A bit i dont know then:

e|-------------------------------
b|-------------------------------
g|-------------------------------
d|-14(xlots) 15(xlots) 12(xlots)-
a|-------------------------------
e|-------------------------------



then!
e|-------------------------------------------------
b|-------------------------------------------------
g|-------------------------------------------------
d|-------------------------------------------------
a|-----14-14-14-14-14-14-14------12-12-12----------
e|-0-0-12-12-12-12-12-12-12-(x4)-10-10-10-(x1)-----x2

Except in time!

Then The piano bit

e|-------------------------------------------------
b|-------------------------------------------------
g|-------------------------------------------------
d|-------------------------------------------------
a|-------------------------------------------------
e|-0-0-12-12-0-0-0-0-0-12-0-0-12-12-0-0-0-10-10-10-


e|------------------------------------------
b|------------------------------------------
g|-16(xlots)-17(lots)-14(xlots)--13(xlots)--
d|------------------------------------------
a|------------------------------------------
e|------------------------------------------

I COULD CREATE LIKE IT WAS STEALING bit

e|------------------
b|------------------
g|------------------
d|-12------10-------
a|-12------10-------
e|-10(lots)8-(lots)-

e|--------------------------
b|--------------------------
g|--------------------------
d|-12------10-------7-------
a|-12------10-------7-------
e|-10(lots)8-(lots)-5(lots)-

e|-------------------
b|-------------------
g|-------------------
d|-16(lots)-19(lots)-bend on last one
a|-------------------
e|-------------------x2

OH YEH!!!!!!

e|-------------------------------------------------
b|-------------------------------------------------
g|-------------------------------------------------
d|-------------------------------------------------
a|-----14-14-14-14-14-14-14------12-12-12----------
e|-0-0-12-12-12-12-12-12-12-(x4)-10-10-10-(x1)-----x2
Im lost in a limpet;)


e|--------------------------------------------------
b|--------------------------------------------------
g|--------------------------------------------------
d|--------------------------------------------------
a|-----14-14-14-14-14-14-14-----15-15-15-15-15-15-15-
e|-0-0-12-12-12-12-12-12-12-0-0-12-12-12-12-12-12-12-


e|---------------------------------------------------
b|---------------------------------------------------
g|---------------------------------------------------
d|---------------------------------------------------
a|-----12-12-12-12-12-12-12-----11-11-11-11-11-11-11-
e|-0-0-12-12-12-12-12-12-12-0-0-12-12-12-12-12-12-12-


e|----------
b|----------
g|----------
d|----------
a|-12-12-12-
e|-10-10-10- x4

e|----------------
b|----------------
g|----------------
d|-2-7-9-12-2-7-9-
a|-2-7-9-12-2-7-9-
e|-0-5-7-10-0-5-7- x8


Then

Riff i dont know plus piano


e|-------------------------------
b|-------------------------------
g|-------------------------------
d|-12-12-12-12-7-7-9-9-9-9-16-16-
a|-12-12-12-12-7-7-9-9-9-9-16-16-
e|-10-10-10-10-5-5-7-7-7-7-14-14-

e|-----------------------------
b|-----------------------------
g|-----------------------------
d|-12-12-12-12-7-7-9-9-9-9-4-4-
a|-12-12-12-12-7-7-9-9-9-9-4-4-
e|-10-10-10-10-5-5-7-7-7-7-2-2- x2




e|-------------------------------
b|-------------------------------
g|-------------------------------
d|-11-11-11-11-7-7-9-9-9-9-16-16-
a|-11-11-11-11-7-7-9-9-9-9-16-16-
e|-9--9--9--9--5-5-7-7-7-7-14-14-


e|-----------------------------
b|-----------------------------
g|-----------------------------
d|-11-11-11-11-7-7-9-9-9-9-4-4-
a|-11-11-11-11-7-7-9-9-9-9-4-4-
e|-9--9--9--9----5-5-7-7-7-7-2-2- x4

e|--------------------------------------------------
b|--------------------------------------------------
g|--------------------------------------------------
d|--------------------------------------------------
a|-----14-14-14-14-14-14-14-----15-15-15-15-15-15-15-
e|-0-0-12-12-12-12-12-12-12-0-0-12-12-12-12-12-12-12-


e|---------------------------------------------------
b|---------------------------------------------------
g|---------------------------------------------------
d|---------------------------------------------------
a|-----12-12-12-12-12-12-12-----11-11-11-11-11-11-11-
e|-0-0-12-12-12-12-12-12-12-0-0-12-12-12-12-12-12-12-


e|------------
b|------------
g|------------
d|------------
a|-12-12-12-
e|-10-10-10- x2


e|-------------------------------------------------
b|-------------------------------------------------
g|-------------------------------------------------
d|-------------------------------------------------
a|-----14-14-14-14-14-14-14------12-12-12----------
e|-0-0-12-12-12-12-12-12-12-(x4)-10-10-10-(x1)-----x2

Then do that with the most kickass distortion ever

ALONG WITH


this tremolo

e|----------------------------------------
b|----------------------------------------
g|-16(lots)-17(lots)-19(lots)-21(lots)-
d|----------------------------------------
a|----------------------------------------
d|----------------------------------------

end on

e|----------
b|----------
g|----------
d|-12-12-12-
a|-12-12-12-
e|-10-10-10-

YEH!!!!!

end.


Beast Cool

Hope you enjoy it
any corrections welcome

Put it on tab sites if you want aslong as i get a bit of credit Cool


Last edited by Jordie on Thu Jul 26, 2007 7:16 pm; edited 4 times in total
Back to top
View user's profile Send private message Visit poster's website MSN Messenger
Display posts from previous:   
Post new topic   Reply to topic    =REUBEN= Forum Index -> Reuben All times are GMT
Page 1 of 1

 
Jump to:  
You cannot post new topics in this forum
You cannot reply to topics in this forum
You cannot edit your posts in this forum
You cannot delete your posts in this forum
You cannot vote in polls in this forum


Powered by phpBB © 2001, 2005 phpBB Group