=REUBEN= Forum Index =REUBEN=
Welcome to the official =REUBEN= forum
 
 FAQFAQ   SearchSearch   MemberlistMemberlist   UsergroupsUsergroups   RegisterRegister 
 ProfileProfile   Log in to check your private messagesLog in to check your private messages   Log inLog in 

Agony/Agatha guitar tab

 
Post new topic   Reply to topic    =REUBEN= Forum Index -> Reuben
View previous topic :: View next topic  
Author Message
sacstan



Age: 31
Joined: 31 Jul 2004
Posts: 131
Location: sheffield

PostPosted: Fri Apr 06, 2007 11:30 am    Post subject: Agony/Agatha guitar tab Reply with quote

So yeah.
its so easy to play.
took me less than half an hour to figure out after watching the DVD.
But thats just the thing.
This is tabbed from the DVD version of the song so it might not be how it sounds on record if its on the new album.

so yeah, for all of you to enjoy Very Happy

Code:

D#-------------------------------
A#-------------------------------
F#-------------------------------
C#-------------------------------
G#------------------------------
D#-0-0-3-4-5-5-7-8-8-9-10-11-12--

D#-----------------------------
A#-----------------------------
F#-----------------------------
C#-----------------------------
G#-----------------------------
D#-0-3-4-5-5-7-8-8-9-10-11-12--

D#-----------
A#-----------
F#-----------
C#--6-7-7-7--
G#-----------
D#-----------

D#----------------------
A#----------------------
F#----------------------
C#-7-7-7-7-7-7-7-7--10--
G#-7-7-7-7-7-7-7-7--10--
D#-5-5-5-5-5-5-5-5--8---
PM ...............

D#-------------------------------
A#-------------------------------
F#-------------------------------
C#-------------------------------
G#------------------------------
D#-0-0-3-4-5-5-7-8-8-9-10-11-12--

D#-----------------------------
A#-----------------------------
F#-----------------------------
C#-----------------------------
G#-----------------------------
D#-0-3-4-5-5-7-8-8-9-10-11-12--

D#-0--0----0--
A#-0--0----0--
F#-1--9----4--
C#-2--10---5--
G#-2--10---5--
D#-0--8----3--

D#-------0--
A#-------0--
F#-------0--
C#-------0--
G#----------
D#-0-0-3----

D#-------------
A#-------------
F#-7-7---------
C#-----8-9-----
G#-------------
D#-------------

D#---------------------------------------------
A#---------------------------------------------
F#---------------------------------------------
C#-7-7-7-7-7-7-7-7-7---7-6-5-4-4-4-4-4-4-4-4-4-
G#-7-7-7-7-7-7-7-7-7---7-6-5-4-4-4-4-4-4-4-4-4-
D#-5-5-5-5-5-5-5-5-5-0-5-4-3-2-2-2-2-2-2-2-2-2-
PM .................         .................

D#------------------- D#----------------------------
A#------------------- A#----------------------------
F#-1-3-4-6-6-6-6-6-6- F#----------------------------
C#-2-4-5-7-7-7-7-7-7- C#-7-9-10--10-10-12--12-13----
G#-2-4-5-7-7-7-7-7-7- G#-7-9-10--10-11-12--12-13----
D#-0-2-3-5-5-5-5-5-5- D#-5-7-8---8--9--10--10-11-12-

D#-------------------------------
A#-------------------------------
F#-------------------------------
C#-------------------------------
G#-------------------------------
D#--0-3-4-5-5-7-8-8-9-10-11-12---

D#-------------------------------
A#-------------------------------
F#-------------------------------
C#-------------------------------
G#-------------------------------
D#-0-3-4-5-5-7-8-8-9-10-11-12----

D#---------------------------
A#---------------------------
F#---------------------------
C#---------------------------
G#---------------------------
D#-0-0-3-4-5-5-7-8-8-9-10-11-

D#-0--0---0--0--
A#-0--0---0--0--
F#-1--9---4--6--
C#-2--10--5--7--
G#-2--10--5--7--
D#-0--8---3--5--

D#----------------------
A#----------------------
F#----------------------
C#-7---7-8---8-7---7-8--
G#-7---7-8---8-7---7-8--
D#-5-0-5-6-0-6-5-0-5-6--

_________________
"turn that on at a party, aint nothing happening. Wack that boy out, everyone be lovin it"
Back to top
View user's profile Send private message Send e-mail
{Cap-Down}



Age: 29
Joined: 20 May 2006
Posts: 1735
Location: Cobham Surrey UK

PostPosted: Fri Apr 06, 2007 6:02 pm    Post subject: Reply with quote

now we just need the lyrics to the new songs.
_________________
Back to top
View user's profile Send private message Send e-mail MSN Messenger
colour_golden
Administrator


Age: 38
Joined: 18 Jan 2004
Posts: 1836
Location: Hull - UK

PostPosted: Sun Apr 08, 2007 1:17 pm    Post subject: Reply with quote

From the DVD i can hear the following for agatha.

Just a big bass ??? and Drums
And bad guitarists sucking their thumbs
I thought about a little much how to do it

??????????
I don't pretend that i can play very well
but i like what piano brings to it!

Before the idea gives way, i press record and press play

Like a panic in my head, wont let.
Like a beast in my bed, guess/Yes i know
Like a crack in the windshield of my ????? (soul it is?)

Agatha!

Just a verse and a chorus now,
?????? Around and Around
?????????????????????????

Sometimes when im trying to write a song
??????????
And think about what i like to hear on it

Thumping drums and chords, thats what im all about
big bass and keyboards, it still don't stop me from rocking out yeah!

Like a panic in my head, wont let.
Like a beast in my bed, guess/Yes i know
Like a crack in the windshield of my ????? (soul it is?)

Agony, Agatha.
It is Agony, Agatha.
It is Agony, Agatha.
It is Agony, Agatha.
Its Agony!
_________________
"Everybodys dead dave, Everybody is dead dave!"
Back to top
View user's profile Send private message Send e-mail MSN Messenger
hempy



Age: 33
Joined: 26 Apr 2004
Posts: 2990
Location: Guildford/Canterbury Uni

PostPosted: Sun Apr 08, 2007 1:35 pm    Post subject: Reply with quote

colour_golden wrote:
From the DVD i can hear the following for agatha.

Just a big bass line and Drums
And bad guitarists sucking their thumbs
I thought about a little much how to do it

??????????
I don't pretend that i can play very well
but i like what piano brings to it!

Before the idea gives way, i press record and press play

Like a panic in my head, wont let.
Like a beast in my bed, guess/Yes i know
Like a crack in the windshield of my ????? (soul it is?)

Agatha!

Just a verse and a chorus now,
In my brain going Around and Around
?????????????????????????

Sometimes when im trying to write a song
[b] Imagine I try turn the radio on

And think about what i like to hear on it

Thumping drums and chords, thats what im all about
big bass and keyboards, it still don't stop me from rocking out yeah!

Like a panic in my head, wont let.
Like a beast in my bed, guess/Yes i know
Like a crack in the windshield of my ????? (soul it is?)

Agony, Agatha.
It is Agony, Agatha.
It is Agony, Agatha.
It is Agony, Agatha.
Its Agony!


Some ????? filled, I think some of it is different, I'll have a crack at it later.
_________________
<@ZoFreX> goddammit
<@ZoFreX> I forgot the definition of irony
<@ZoFreX> so I went to look it up on Wikipedia
<@ZoFreX> but Wikipedia is down
<@ZoFreX> AND I DON'T KNOW WHETHER THAT'S IRONIC OR NOT
Back to top
View user's profile Send private message Visit poster's website AIM Address MSN Messenger
colour_golden
Administrator


Age: 38
Joined: 18 Jan 2004
Posts: 1836
Location: Hull - UK

PostPosted: Sun Apr 08, 2007 1:49 pm    Post subject: Reply with quote

Just a verse and a chorus now,
In my brain playin' Around and Around
And around in a loop in my body???? - does this sound stupid?
_________________
"Everybodys dead dave, Everybody is dead dave!"
Back to top
View user's profile Send private message Send e-mail MSN Messenger
{Cap-Down}



Age: 29
Joined: 20 May 2006
Posts: 1735
Location: Cobham Surrey UK

PostPosted: Sun Apr 08, 2007 3:02 pm    Post subject: Reply with quote

something about turning on the radio when he's writing a song.
_________________
Back to top
View user's profile Send private message Send e-mail MSN Messenger
Aidan
Moderator


Age: 32
Joined: 19 Apr 2004
Posts: 3269
Location: Yateley, Hampshire

PostPosted: Sun Apr 08, 2007 6:00 pm    Post subject: Reply with quote

Beast in my bed, I can't say no

Isn't it?
_________________
Well if you're just gonna be like that
Then I'll end up in a fight with someone that I really like
Back to top
View user's profile Send private message Send e-mail Visit poster's website
colour_golden
Administrator


Age: 38
Joined: 18 Jan 2004
Posts: 1836
Location: Hull - UK

PostPosted: Sun Apr 08, 2007 6:17 pm    Post subject: Reply with quote

Cant say for sure. Could be, people who where at the gig will have a better idea.
_________________
"Everybodys dead dave, Everybody is dead dave!"
Back to top
View user's profile Send private message Send e-mail MSN Messenger
hempy



Age: 33
Joined: 26 Apr 2004
Posts: 2990
Location: Guildford/Canterbury Uni

PostPosted: Sun Apr 08, 2007 10:55 pm    Post subject: Reply with quote

Like a beast in my bed, that cant say no

is how its sounded to me live.
_________________
<@ZoFreX> goddammit
<@ZoFreX> I forgot the definition of irony
<@ZoFreX> so I went to look it up on Wikipedia
<@ZoFreX> but Wikipedia is down
<@ZoFreX> AND I DON'T KNOW WHETHER THAT'S IRONIC OR NOT
Back to top
View user's profile Send private message Visit poster's website AIM Address MSN Messenger
Display posts from previous:   
Post new topic   Reply to topic    =REUBEN= Forum Index -> Reuben All times are GMT
Page 1 of 1

 
Jump to:  
You cannot post new topics in this forum
You cannot reply to topics in this forum
You cannot edit your posts in this forum
You cannot delete your posts in this forum
You cannot vote in polls in this forum


Powered by phpBB © 2001, 2005 phpBB Group